ISO-10303-21;
HEADER;
FILE_DESCRIPTION (( 'STEP AP203' ),
    '1' );
FILE_NAME ('Q-OZHWP-R2-12.7-795-M.STEP',
    '2020-12-22T09:14:50',
    ( '' ),
    ( '' ),
    'SwSTEP 2.0',
    'SolidWorks 2020',
    '' );
FILE_SCHEMA (( 'CONFIG_CONTROL_DESIGN' ));
ENDSEC;

DATA;
#1 = APPROVAL_STATUS ( 'not_yet_approved' ) ;
#2 = EDGE_LOOP ( 'NONE', ( #212, #256 ) ) ;
#3 = APPROVAL_DATE_TIME ( #72, #65 ) ;
#4 = CARTESIAN_POINT ( 'NONE',  ( 3.000000000000000888, 7.776507174585692163E-16, -6.349999999999999645 ) ) ;
#5 = AXIS2_PLACEMENT_3D ( 'NONE', #316, #61, #300 ) ;
#6 = PERSON_AND_ORGANIZATION ( #40, #332 ) ;
#7 = ORIENTED_EDGE ( 'NONE', *, *, #315, .T. ) ;
#8 = EDGE_CURVE ( 'NONE', #128, #275, #114, .T. ) ;
#9 = EDGE_LOOP ( 'NONE', ( #223, #7, #248, #83 ) ) ;
#10 = MANIFOLD_SOLID_BREP ( 'Ðý×', #245 ) ;
#11 = CYLINDRICAL_SURFACE ( 'NONE', #294, 12.69999999999999929 ) ;
#12 = DIRECTION ( 'NONE',  ( 1.000000000000000000, 0.000000000000000000, 0.000000000000000000 ) ) ;
#13 = CIRCLE ( 'NONE', #288, 12.69999999999999929 ) ;
#14 = CARTESIAN_POINT ( 'NONE',  ( -3.000000000000000000, 0.000000000000000000, 12.69999999999999929 ) ) ;
#15 = FACE_OUTER_BOUND ( 'NONE', #110, .T. ) ;
#16 = FACE_OUTER_BOUND ( 'NONE', #9, .T. ) ;
#17 = AXIS2_PLACEMENT_3D ( 'NONE', #175, #43, #206 ) ;
#18 = DIRECTION ( 'NONE',  ( -1.000000000000000000, -0.000000000000000000, -0.000000000000000000 ) ) ;
#19 = VERTEX_POINT ( 'NONE', #305 ) ;
#20 = DIRECTION ( 'NONE',  ( 0.000000000000000000, 0.000000000000000000, 1.000000000000000000 ) ) ;
#21 = DIRECTION ( 'NONE',  ( -1.000000000000000000, -0.000000000000000000, -0.000000000000000000 ) ) ;
#22 = ORIENTED_EDGE ( 'NONE', *, *, #268, .T. ) ;
#23 = AXIS2_PLACEMENT_3D ( 'NONE', #176, #274, #272 ) ;
#24 = AXIS2_PLACEMENT_3D ( 'NONE', #287, #161, #156 ) ;
#25 = COORDINATED_UNIVERSAL_TIME_OFFSET ( 8, 0, .AHEAD. ) ;
#26 = ORIENTED_EDGE ( 'NONE', *, *, #273, .F. ) ;
#27 = CARTESIAN_POINT ( 'NONE',  ( -1.614212418857619014, 0.000000000000000000, 6.349999999999999645 ) ) ;
#28 = EDGE_CURVE ( 'NONE', #229, #263, #333, .T. ) ;
#29 = ORIENTED_EDGE ( 'NONE', *, *, #269, .T. ) ;
#30 = AXIS2_PLACEMENT_3D ( 'NONE', #116, #215, #115 ) ;
#31 = VERTEX_POINT ( 'NONE', #214 ) ;
#32 = FACE_OUTER_BOUND ( 'NONE', #178, .T. ) ;
#33 = LOCAL_TIME ( 17, 14, 50.00000000000000000, #311 ) ;
#34 = EDGE_CURVE ( 'NONE', #19, #76, #312, .T. ) ;
#35 = DIRECTION ( 'NONE',  ( 0.000000000000000000, 0.000000000000000000, 1.000000000000000000 ) ) ;
#36 = CARTESIAN_POINT ( 'NONE',  ( 3.000000000000000888, 0.000000000000000000, 6.349999999999999645 ) ) ;
#37 = PLANE ( 'NONE',  #299 ) ;
#38 = CC_DESIGN_PERSON_AND_ORGANIZATION_ASSIGNMENT ( #157, #286, ( #198 ) ) ;
#39 = CARTESIAN_POINT ( 'NONE',  ( -1.500000000000000444, 6.349999999999999645, 0.000000000000000000 ) ) ;
#40 = PERSON ( 'UNSPECIFIED', 'UNSPECIFIED', 'UNSPECIFIED', ('UNSPECIFIED'), ('UNSPECIFIED'), ('UNSPECIFIED') ) ;
#41 = FACE_OUTER_BOUND ( 'NONE', #254, .T. ) ;
#42 = CIRCLE ( 'NONE', #226, 12.69999999999999929 ) ;
#43 = DIRECTION ( 'NONE',  ( -1.000000000000000000, -0.000000000000000000, -0.000000000000000000 ) ) ;
#44 = ORIENTED_EDGE ( 'NONE', *, *, #315, .F. ) ;
#45 = EDGE_LOOP ( 'NONE', ( #78, #208, #55, #29 ) ) ;
#46 = DIRECTION ( 'NONE',  ( 0.000000000000000000, 0.000000000000000000, 1.000000000000000000 ) ) ;
#47 = CARTESIAN_POINT ( 'NONE',  ( -1.614212418857619014, 1.555301434917138433E-15, -12.69999999999999929 ) ) ;
#48 = PERSON_AND_ORGANIZATION_ROLE ( 'design_supplier' ) ;
#49 = ORIENTED_EDGE ( 'NONE', *, *, #284, .F. ) ;
#50 = PERSON_AND_ORGANIZATION_ROLE ( 'design_owner' ) ;
#51 = ORIENTED_EDGE ( 'NONE', *, *, #34, .F. ) ;
#52 = AXIS2_PLACEMENT_3D ( 'NONE', #301, #246, #203 ) ;
#53 = VECTOR ( 'NONE', #231, 1000.000000000000000 ) ;
#54 = DATE_TIME_ROLE ( 'classification_date' ) ;
#55 = ORIENTED_EDGE ( 'NONE', *, *, #253, .T. ) ;
#56 = APPROVAL_PERSON_ORGANIZATION ( #6, #314, #262 ) ;
#57 = ORIENTED_EDGE ( 'NONE', *, *, #149, .T. ) ;
#58 = PERSON_AND_ORGANIZATION ( #40, #332 ) ;
#59 = VERTEX_POINT ( 'NONE', #4 ) ;
#60 = APPROVAL_PERSON_ORGANIZATION ( #58, #185, #160 ) ;
#61 = DIRECTION ( 'NONE',  ( 1.000000000000000000, 0.000000000000000000, 0.000000000000000000 ) ) ;
#62 = CYLINDRICAL_SURFACE ( 'NONE', #134, 6.349999999999999645 ) ;
#63 = DIRECTION ( 'NONE',  ( 1.000000000000000000, 0.000000000000000000, 0.000000000000000000 ) ) ;
#64 = CARTESIAN_POINT ( 'NONE',  ( 3.000000000000000000, 0.000000000000000000, 12.69999999999999929 ) ) ;
#65 = APPROVAL ( #180, 'UNSPECIFIED' ) ;
#66 = DIRECTION ( 'NONE',  ( -1.000000000000000000, -0.000000000000000000, -0.000000000000000000 ) ) ;
#67 =( LENGTH_UNIT ( ) NAMED_UNIT ( * ) SI_UNIT ( .MILLI., .METRE. ) );
#68 = CIRCLE ( 'NONE', #159, 6.349999999999999645 ) ;
#69 = CARTESIAN_POINT ( 'NONE',  ( -1.614212418857619014, 0.000000000000000000, 6.349999999999999645 ) ) ;
#70 = CARTESIAN_POINT ( 'NONE',  ( -1.500000000000000444, 7.776507174585692163E-16, -6.349999999999999645 ) ) ;
#71 = ADVANCED_FACE ( 'NONE', ( #112 ), #62, .F. ) ;
#72 = DATE_AND_TIME ( #162, #179 ) ;
#73 = CC_DESIGN_DATE_AND_TIME_ASSIGNMENT ( #209, #54, ( #198 ) ) ;
#74 = EDGE_LOOP ( 'NONE', ( #140, #335 ) ) ;
#75 = LOCAL_TIME ( 17, 14, 50.00000000000000000, #25 ) ;
#76 = VERTEX_POINT ( 'NONE', #169 ) ;
#77 = PERSON_AND_ORGANIZATION ( #40, #332 ) ;
#78 = ORIENTED_EDGE ( 'NONE', *, *, #213, .F. ) ;
#79 = AXIS2_PLACEMENT_3D ( 'NONE', #39, #12, #168 ) ;
#80 = SECURITY_CLASSIFICATION_LEVEL ( 'unclassified' ) ;
#81 = ORIENTED_EDGE ( 'NONE', *, *, #90, .T. ) ;
#82 = PERSON_AND_ORGANIZATION ( #40, #332 ) ;
#83 = ORIENTED_EDGE ( 'NONE', *, *, #135, .F. ) ;
#84 = CARTESIAN_POINT ( 'NONE',  ( 1.500000000000000444, 6.349999999999999645, 0.000000000000000000 ) ) ;
#85 = ADVANCED_FACE ( 'NONE', ( #172 ), #119, .F. ) ;
#86 = LOCAL_TIME ( 17, 14, 50.00000000000000000, #225 ) ;
#87 = DIRECTION ( 'NONE',  ( 0.000000000000000000, 0.000000000000000000, -1.000000000000000000 ) ) ;
#88 = FACE_BOUND ( 'NONE', #133, .T. ) ;
#89 = DIRECTION ( 'NONE',  ( -1.000000000000000000, -0.000000000000000000, -0.000000000000000000 ) ) ;
#90 = EDGE_CURVE ( 'NONE', #275, #128, #13, .T. ) ;
#91 = CIRCLE ( 'NONE', #23, 6.349999999999999645 ) ;
#92 = FACE_OUTER_BOUND ( 'NONE', #184, .T. ) ;
#93 = AXIS2_PLACEMENT_3D ( 'NONE', #270, #63, #170 ) ;
#94 = CARTESIAN_POINT ( 'NONE',  ( 1.500000000000000888, 0.000000000000000000, 0.000000000000000000 ) ) ;
#95 = LOCAL_TIME ( 17, 14, 50.00000000000000000, #280 ) ;
#96 = ADVANCED_FACE ( 'NONE', ( #319 ), #320, .F. ) ;
#97 = DIRECTION ( 'NONE',  ( -1.000000000000000000, 0.000000000000000000, -0.000000000000000000 ) ) ;
#98 = AXIS2_PLACEMENT_3D ( 'NONE', #220, #18, #322 ) ;
#99 = AXIS2_PLACEMENT_3D ( 'NONE', #84, #218, #271 ) ;
#100 = CYLINDRICAL_SURFACE ( 'NONE', #52, 12.69999999999999929 ) ;
#101 = ORIENTED_EDGE ( 'NONE', *, *, #284, .T. ) ;
#102 = CC_DESIGN_SECURITY_CLASSIFICATION ( #198, ( #143 ) ) ;
#103 = FACE_BOUND ( 'NONE', #2, .T. ) ;
#104 = EDGE_CURVE ( 'NONE', #187, #76, #129, .T. ) ;
#105 = CC_DESIGN_PERSON_AND_ORGANIZATION_ASSIGNMENT ( #77, #50, ( #188 ) ) ;
#106 = AXIS2_PLACEMENT_3D ( 'NONE', #317, #190, #264 ) ;
#107 = COORDINATED_UNIVERSAL_TIME_OFFSET ( 8, 0, .AHEAD. ) ;
#108 = EDGE_LOOP ( 'NONE', ( #259, #290, #22, #136 ) ) ;
#109 = CALENDAR_DATE ( 2020, 22, 12 ) ;
#110 = EDGE_LOOP ( 'NONE', ( #165, #181, #232, #51 ) ) ;
#111 = PERSON_AND_ORGANIZATION_ROLE ( 'creator' ) ;
#112 = FACE_OUTER_BOUND ( 'NONE', #108, .T. ) ;
#113 = VECTOR ( 'NONE', #171, 1000.000000000000000 ) ;
#114 = CIRCLE ( 'NONE', #30, 12.69999999999999929 ) ;
#115 = DIRECTION ( 'NONE',  ( 0.000000000000000000, 0.000000000000000000, 1.000000000000000000 ) ) ;
#116 = CARTESIAN_POINT ( 'NONE',  ( 3.000000000000000000, 0.000000000000000000, 0.000000000000000000 ) ) ;
#117 = CARTESIAN_POINT ( 'NONE',  ( 3.000000000000000000, 0.000000000000000000, 0.000000000000000000 ) ) ;
#118 = APPLICATION_CONTEXT ( 'configuration controlled 3d designs of mechanical parts and assemblies' ) ;
#119 = PLANE ( 'NONE',  #99 ) ;
#120 = UNCERTAINTY_MEASURE_WITH_UNIT (LENGTH_MEASURE( 1.000000000000000082E-05 ), #67, 'distance_accuracy_value', 'NONE');
#121 = DIRECTION ( 'NONE',  ( -1.000000000000000000, -0.000000000000000000, -0.000000000000000000 ) ) ;
#122 = DIRECTION ( 'NONE',  ( -1.000000000000000000, -0.000000000000000000, -0.000000000000000000 ) ) ;
#123 = VECTOR ( 'NONE', #302, 1000.000000000000000 ) ;
#124 = DIRECTION ( 'NONE',  ( 0.000000000000000000, 0.000000000000000000, 1.000000000000000000 ) ) ;
#125 = PLANE ( 'NONE',  #298 ) ;
#126 = DIRECTION ( 'NONE',  ( -1.000000000000000000, -0.000000000000000000, -0.000000000000000000 ) ) ;
#127 = AXIS2_PLACEMENT_3D ( 'NONE', #323, #46, #153 ) ;
#128 = VERTEX_POINT ( 'NONE', #64 ) ;
#129 = CIRCLE ( 'NONE', #309, 6.349999999999999645 ) ;
#130 = DIRECTION ( 'NONE',  ( 0.000000000000000000, 0.000000000000000000, 1.000000000000000000 ) ) ;
#131 = ADVANCED_FACE ( 'NONE', ( #88, #32 ), #37, .F. ) ;
#132 = APPROVAL_DATE_TIME ( #289, #314 ) ;
#133 = EDGE_LOOP ( 'NONE', ( #49, #292 ) ) ;
#134 = AXIS2_PLACEMENT_3D ( 'NONE', #219, #66, #35 ) ;
#135 = EDGE_CURVE ( 'NONE', #128, #229, #265, .T. ) ;
#136 = ORIENTED_EDGE ( 'NONE', *, *, #253, .F. ) ;
#137 = DATE_AND_TIME ( #230, #86 ) ;
#138 = VERTEX_POINT ( 'NONE', #243 ) ;
#139 = APPROVAL_DATE_TIME ( #137, #185 ) ;
#140 = ORIENTED_EDGE ( 'NONE', *, *, #269, .F. ) ;
#141 = EDGE_LOOP ( 'NONE', ( #44, #81, #281, #26 ) ) ;
#142 = CC_DESIGN_PERSON_AND_ORGANIZATION_ASSIGNMENT ( #291, #48, ( #143 ) ) ;
#143 = PRODUCT_DEFINITION_FORMATION_WITH_SPECIFIED_SOURCE ( 'ANY', '', #188, .NOT_KNOWN. ) ;
#144 = CARTESIAN_POINT ( 'NONE',  ( -3.000000000000000000, 6.349999999999999645, 0.000000000000000000 ) ) ;
#145 = CARTESIAN_POINT ( 'NONE',  ( -2.999999999999999556, 0.000000000000000000, 0.000000000000000000 ) ) ;
#146 = CYLINDRICAL_SURFACE ( 'NONE', #244, 6.349999999999999645 ) ;
#147 = CARTESIAN_POINT ( 'NONE',  ( -2.999999999999999556, 7.776507174585692163E-16, -6.349999999999999645 ) ) ;
#148 = DIRECTION ( 'NONE',  ( -1.000000000000000000, -0.000000000000000000, -0.000000000000000000 ) ) ;
#149 = EDGE_CURVE ( 'NONE', #283, #19, #234, .T. ) ;
#150 = CARTESIAN_POINT ( 'NONE',  ( -2.999999999999999556, 0.000000000000000000, 0.000000000000000000 ) ) ;
#151 = DIRECTION ( 'NONE',  ( -0.000000000000000000, 0.000000000000000000, 1.000000000000000000 ) ) ;
#152 = DIRECTION ( 'NONE',  ( -1.000000000000000000, -0.000000000000000000, -0.000000000000000000 ) ) ;
#153 = DIRECTION ( 'NONE',  ( 1.000000000000000000, 0.000000000000000000, 0.000000000000000000 ) ) ;
#154 = APPLICATION_CONTEXT ( 'configuration controlled 3d designs of mechanical parts and assemblies' ) ;
#155 = CARTESIAN_POINT ( 'NONE',  ( -3.000000000000000000, 0.000000000000000000, 0.000000000000000000 ) ) ;
#156 = DIRECTION ( 'NONE',  ( 0.000000000000000000, 0.000000000000000000, 1.000000000000000000 ) ) ;
#157 = PERSON_AND_ORGANIZATION ( #40, #332 ) ;
#158 = ORIENTED_EDGE ( 'NONE', *, *, #90, .F. ) ;
#159 = AXIS2_PLACEMENT_3D ( 'NONE', #252, #204, #20 ) ;
#160 = APPROVAL_ROLE ( '' ) ;
#161 = DIRECTION ( 'NONE',  ( -1.000000000000000000, -0.000000000000000000, -0.000000000000000000 ) ) ;
#162 = CALENDAR_DATE ( 2020, 22, 12 ) ;
#163 = DATE_AND_TIME ( #109, #95 ) ;
#164 = ADVANCED_FACE ( 'NONE', ( #16 ), #11, .T. ) ;
#165 = ORIENTED_EDGE ( 'NONE', *, *, #191, .T. ) ;
#166 = EDGE_CURVE ( 'NONE', #283, #187, #216, .T. ) ;
#167 = CIRCLE ( 'NONE', #239, 6.349999999999999645 ) ;
#168 = DIRECTION ( 'NONE',  ( 0.000000000000000000, 0.000000000000000000, -1.000000000000000000 ) ) ;
#169 = CARTESIAN_POINT ( 'NONE',  ( -2.999999999999999556, 0.000000000000000000, 6.349999999999999645 ) ) ;
#170 = DIRECTION ( 'NONE',  ( 0.000000000000000000, 0.000000000000000000, -1.000000000000000000 ) ) ;
#171 = DIRECTION ( 'NONE',  ( -1.000000000000000000, -0.000000000000000000, -0.000000000000000000 ) ) ;
#172 = FACE_OUTER_BOUND ( 'NONE', #74, .T. ) ;
#173 = APPLICATION_PROTOCOL_DEFINITION ( 'international standard', 'config_control_design', 1994, #118 ) ;
#174 = CARTESIAN_POINT ( 'NONE',  ( -3.000000000000000000, 1.555301434917138433E-15, -12.69999999999999929 ) ) ;
#175 = CARTESIAN_POINT ( 'NONE',  ( 3.000000000000000888, 0.000000000000000000, 0.000000000000000000 ) ) ;
#176 = CARTESIAN_POINT ( 'NONE',  ( 1.500000000000000888, 0.000000000000000000, 0.000000000000000000 ) ) ;
#177 = AXIS2_PLACEMENT_3D ( 'NONE', #150, #21, #222 ) ;
#178 = EDGE_LOOP ( 'NONE', ( #261, #307 ) ) ;
#179 = LOCAL_TIME ( 17, 14, 50.00000000000000000, #107 ) ;
#180 = APPROVAL_STATUS ( 'not_yet_approved' ) ;
#181 = ORIENTED_EDGE ( 'NONE', *, *, #166, .T. ) ;
#182 = ORIENTED_EDGE ( 'NONE', *, *, #34, .T. ) ;
#183 = CALENDAR_DATE ( 2020, 22, 12 ) ;
#184 = EDGE_LOOP ( 'NONE', ( #210, #57, #182, #101 ) ) ;
#185 = APPROVAL ( #1, 'UNSPECIFIED' ) ;
#186 = CC_DESIGN_DATE_AND_TIME_ASSIGNMENT ( #163, #258, ( #303 ) ) ;
#187 = VERTEX_POINT ( 'NONE', #147 ) ;
#188 = PRODUCT ( 'Q-OZHWP-R2-12.7-795-M', 'Q-OZHWP-R2-12.7-795-M', '', ( #251 ) ) ;
#189 = CARTESIAN_POINT ( 'NONE',  ( -1.614212418857619014, 0.000000000000000000, 0.000000000000000000 ) ) ;
#190 = DIRECTION ( 'NONE',  ( -1.000000000000000000, -0.000000000000000000, -0.000000000000000000 ) ) ;
#191 = EDGE_CURVE ( 'NONE', #19, #283, #207, .T. ) ;
#192 = DIRECTION ( 'NONE',  ( 1.000000000000000000, 0.000000000000000000, 0.000000000000000000 ) ) ;
#193 = DESIGN_CONTEXT ( 'detailed design', #154, 'design' ) ;
#194 = CARTESIAN_POINT ( 'NONE',  ( -1.614212418857619014, 0.000000000000000000, 0.000000000000000000 ) ) ;
#195 = VECTOR ( 'NONE', #296, 1000.000000000000000 ) ;
#196 = ADVANCED_FACE ( 'NONE', ( #240 ), #242, .F. ) ;
#197 = CYLINDRICAL_SURFACE ( 'NONE', #98, 6.349999999999999645 ) ;
#198 = SECURITY_CLASSIFICATION ( '', '', #80 ) ;
#199 = CC_DESIGN_PERSON_AND_ORGANIZATION_ASSIGNMENT ( #304, #111, ( #303 ) ) ;
#200 = FACE_OUTER_BOUND ( 'NONE', #141, .T. ) ;
#201 = CARTESIAN_POINT ( 'NONE',  ( 3.000000000000000000, 12.69999999999999929, 0.000000000000000000 ) ) ;
#202 = CIRCLE ( 'NONE', #177, 6.349999999999999645 ) ;
#203 = DIRECTION ( 'NONE',  ( 0.000000000000000000, 0.000000000000000000, 1.000000000000000000 ) ) ;
#204 = DIRECTION ( 'NONE',  ( -1.000000000000000000, -0.000000000000000000, -0.000000000000000000 ) ) ;
#205 = APPROVAL_PERSON_ORGANIZATION ( #82, #65, #255 ) ;
#206 = DIRECTION ( 'NONE',  ( 0.000000000000000000, 0.000000000000000000, 1.000000000000000000 ) ) ;
#207 = CIRCLE ( 'NONE', #5, 6.349999999999999645 ) ;
#208 = ORIENTED_EDGE ( 'NONE', *, *, #327, .F. ) ;
#209 = DATE_AND_TIME ( #308, #75 ) ;
#210 = ORIENTED_EDGE ( 'NONE', *, *, #166, .F. ) ;
#211 = PERSON_AND_ORGANIZATION_ROLE ( 'creator' ) ;
#212 = ORIENTED_EDGE ( 'NONE', *, *, #327, .T. ) ;
#213 = EDGE_CURVE ( 'NONE', #59, #138, #295, .T. ) ;
#214 = CARTESIAN_POINT ( 'NONE',  ( 1.500000000000000888, 0.000000000000000000, 6.349999999999999645 ) ) ;
#215 = DIRECTION ( 'NONE',  ( -1.000000000000000000, -0.000000000000000000, -0.000000000000000000 ) ) ;
#216 = LINE ( 'NONE', #293, #233 ) ;
#217 = DIRECTION ( 'NONE',  ( 0.000000000000000000, 0.000000000000000000, 1.000000000000000000 ) ) ;
#218 = DIRECTION ( 'NONE',  ( -1.000000000000000000, 0.000000000000000000, -0.000000000000000000 ) ) ;
#219 = CARTESIAN_POINT ( 'NONE',  ( -1.614212418857619014, 0.000000000000000000, 0.000000000000000000 ) ) ;
#220 = CARTESIAN_POINT ( 'NONE',  ( -1.614212418857619014, 0.000000000000000000, 0.000000000000000000 ) ) ;
#221 = LINE ( 'NONE', #69, #285 ) ;
#222 = DIRECTION ( 'NONE',  ( 0.000000000000000000, 0.000000000000000000, 1.000000000000000000 ) ) ;
#223 = ORIENTED_EDGE ( 'NONE', *, *, #8, .T. ) ;
#224 = DIRECTION ( 'NONE',  ( 0.000000000000000000, 0.000000000000000000, 1.000000000000000000 ) ) ;
#225 = COORDINATED_UNIVERSAL_TIME_OFFSET ( 8, 0, .AHEAD. ) ;
#226 = AXIS2_PLACEMENT_3D ( 'NONE', #155, #126, #130 ) ;
#227 = ORIENTED_EDGE ( 'NONE', *, *, #8, .F. ) ;
#228 = APPROVAL_STATUS ( 'not_yet_approved' ) ;
#229 = VERTEX_POINT ( 'NONE', #14 ) ;
#230 = CALENDAR_DATE ( 2020, 22, 12 ) ;
#231 = DIRECTION ( 'NONE',  ( -1.000000000000000000, -0.000000000000000000, -0.000000000000000000 ) ) ;
#232 = ORIENTED_EDGE ( 'NONE', *, *, #104, .T. ) ;
#233 = VECTOR ( 'NONE', #89, 1000.000000000000000 ) ;
#234 = CIRCLE ( 'NONE', #93, 6.349999999999999645 ) ;
#235 = VERTEX_POINT ( 'NONE', #36 ) ;
#236 = ADVANCED_FACE ( 'NONE', ( #15 ), #146, .F. ) ;
#237 = CARTESIAN_POINT ( 'NONE',  ( -1.614212418857619014, 0.000000000000000000, 12.69999999999999929 ) ) ;
#238 = DIRECTION ( 'NONE',  ( 0.000000000000000000, 0.000000000000000000, 1.000000000000000000 ) ) ;
#239 = AXIS2_PLACEMENT_3D ( 'NONE', #94, #326, #224 ) ;
#240 = FACE_OUTER_BOUND ( 'NONE', #45, .T. ) ;
#241 = CC_DESIGN_APPROVAL ( #314, ( #198 ) ) ;
#242 = CYLINDRICAL_SURFACE ( 'NONE', #106, 6.349999999999999645 ) ;
#243 = CARTESIAN_POINT ( 'NONE',  ( 1.500000000000000888, 7.776507174585692163E-16, -6.349999999999999645 ) ) ;
#244 = AXIS2_PLACEMENT_3D ( 'NONE', #194, #122, #321 ) ;
#245 = CLOSED_SHELL ( 'NONE', ( #164, #236, #71, #85, #196, #247, #131, #318, #279, #96 ) ) ;
#246 = DIRECTION ( 'NONE',  ( -1.000000000000000000, -0.000000000000000000, -0.000000000000000000 ) ) ;
#247 = ADVANCED_FACE ( 'NONE', ( #92 ), #197, .F. ) ;
#248 = ORIENTED_EDGE ( 'NONE', *, *, #28, .F. ) ;
#249 =( NAMED_UNIT ( * ) SI_UNIT ( $, .STERADIAN. ) SOLID_ANGLE_UNIT ( ) );
#250 = EDGE_LOOP ( 'NONE', ( #310, #328 ) ) ;
#251 = MECHANICAL_CONTEXT ( 'NONE', #118, 'mechanical' ) ;
#252 = CARTESIAN_POINT ( 'NONE',  ( 3.000000000000000888, 0.000000000000000000, 0.000000000000000000 ) ) ;
#253 = EDGE_CURVE ( 'NONE', #235, #31, #221, .T. ) ;
#254 = EDGE_LOOP ( 'NONE', ( #227, #158 ) ) ;
#255 = APPROVAL_ROLE ( '' ) ;
#256 = ORIENTED_EDGE ( 'NONE', *, *, #306, .T. ) ;
#257 = PRODUCT_RELATED_PRODUCT_CATEGORY ( 'detail', '', ( #188 ) ) ;
#258 = DATE_TIME_ROLE ( 'creation_date' ) ;
#259 = ORIENTED_EDGE ( 'NONE', *, *, #306, .F. ) ;
#260 = CC_DESIGN_APPROVAL ( #185, ( #303 ) ) ;
#261 = ORIENTED_EDGE ( 'NONE', *, *, #28, .T. ) ;
#262 = APPROVAL_ROLE ( '' ) ;
#263 = VERTEX_POINT ( 'NONE', #174 ) ;
#264 = DIRECTION ( 'NONE',  ( 0.000000000000000000, 0.000000000000000000, 1.000000000000000000 ) ) ;
#265 = LINE ( 'NONE', #237, #195 ) ;
#266 = PRODUCT_DEFINITION_SHAPE ( 'NONE', 'NONE',  #303 ) ;
#267 = DIRECTION ( 'NONE',  ( -1.000000000000000000, -0.000000000000000000, -0.000000000000000000 ) ) ;
#268 = EDGE_CURVE ( 'NONE', #138, #31, #167, .T. ) ;
#269 = EDGE_CURVE ( 'NONE', #31, #138, #91, .T. ) ;
#270 = CARTESIAN_POINT ( 'NONE',  ( -1.500000000000000444, 0.000000000000000000, 0.000000000000000000 ) ) ;
#271 = DIRECTION ( 'NONE',  ( -0.000000000000000000, 0.000000000000000000, 1.000000000000000000 ) ) ;
#272 = DIRECTION ( 'NONE',  ( 0.000000000000000000, 0.000000000000000000, 1.000000000000000000 ) ) ;
#273 = EDGE_CURVE ( 'NONE', #263, #229, #42, .T. ) ;
#274 = DIRECTION ( 'NONE',  ( -1.000000000000000000, -0.000000000000000000, -0.000000000000000000 ) ) ;
#275 = VERTEX_POINT ( 'NONE', #324 ) ;
#276 = CIRCLE ( 'NONE', #17, 6.349999999999999645 ) ;
#277 = CC_DESIGN_PERSON_AND_ORGANIZATION_ASSIGNMENT ( #282, #211, ( #143 ) ) ;
#278 =( NAMED_UNIT ( * ) PLANE_ANGLE_UNIT ( ) SI_UNIT ( $, .RADIAN. ) );
#279 = ADVANCED_FACE ( 'NONE', ( #41, #103 ), #125, .F. ) ;
#280 = COORDINATED_UNIVERSAL_TIME_OFFSET ( 8, 0, .AHEAD. ) ;
#281 = ORIENTED_EDGE ( 'NONE', *, *, #135, .T. ) ;
#282 = PERSON_AND_ORGANIZATION ( #40, #332 ) ;
#283 = VERTEX_POINT ( 'NONE', #70 ) ;
#284 = EDGE_CURVE ( 'NONE', #76, #187, #202, .T. ) ;
#285 = VECTOR ( 'NONE', #152, 1000.000000000000000 ) ;
#286 = PERSON_AND_ORGANIZATION_ROLE ( 'classification_officer' ) ;
#287 = CARTESIAN_POINT ( 'NONE',  ( -3.000000000000000000, 0.000000000000000000, 0.000000000000000000 ) ) ;
#288 = AXIS2_PLACEMENT_3D ( 'NONE', #117, #121, #217 ) ;
#289 = DATE_AND_TIME ( #183, #33 ) ;
#290 = ORIENTED_EDGE ( 'NONE', *, *, #213, .T. ) ;
#291 = PERSON_AND_ORGANIZATION ( #40, #332 ) ;
#292 = ORIENTED_EDGE ( 'NONE', *, *, #104, .F. ) ;
#293 = CARTESIAN_POINT ( 'NONE',  ( -1.614212418857619014, 7.776507174585692163E-16, -6.349999999999999645 ) ) ;
#294 = AXIS2_PLACEMENT_3D ( 'NONE', #189, #267, #124 ) ;
#295 = LINE ( 'NONE', #297, #113 ) ;
#296 = DIRECTION ( 'NONE',  ( -1.000000000000000000, -0.000000000000000000, -0.000000000000000000 ) ) ;
#297 = CARTESIAN_POINT ( 'NONE',  ( -1.614212418857619014, 7.776507174585692163E-16, -6.349999999999999645 ) ) ;
#298 = AXIS2_PLACEMENT_3D ( 'NONE', #201, #97, #151 ) ;
#299 = AXIS2_PLACEMENT_3D ( 'NONE', #144, #192, #87 ) ;
#300 = DIRECTION ( 'NONE',  ( 0.000000000000000000, 0.000000000000000000, -1.000000000000000000 ) ) ;
#301 = CARTESIAN_POINT ( 'NONE',  ( -1.614212418857619014, 0.000000000000000000, 0.000000000000000000 ) ) ;
#302 = DIRECTION ( 'NONE',  ( -1.000000000000000000, -0.000000000000000000, -0.000000000000000000 ) ) ;
#303 = PRODUCT_DEFINITION ( 'UNKNOWN', '', #143, #193 ) ;
#304 = PERSON_AND_ORGANIZATION ( #40, #332 ) ;
#305 = CARTESIAN_POINT ( 'NONE',  ( -1.500000000000000444, 0.000000000000000000, 6.349999999999999645 ) ) ;
#306 = EDGE_CURVE ( 'NONE', #59, #235, #68, .T. ) ;
#307 = ORIENTED_EDGE ( 'NONE', *, *, #273, .T. ) ;
#308 = CALENDAR_DATE ( 2020, 22, 12 ) ;
#309 = AXIS2_PLACEMENT_3D ( 'NONE', #145, #148, #238 ) ;
#310 = ORIENTED_EDGE ( 'NONE', *, *, #191, .F. ) ;
#311 = COORDINATED_UNIVERSAL_TIME_OFFSET ( 8, 0, .AHEAD. ) ;
#312 = LINE ( 'NONE', #27, #53 ) ;
#313 = CC_DESIGN_APPROVAL ( #65, ( #143 ) ) ;
#314 = APPROVAL ( #228, 'UNSPECIFIED' ) ;
#315 = EDGE_CURVE ( 'NONE', #275, #263, #329, .T. ) ;
#316 = CARTESIAN_POINT ( 'NONE',  ( -1.500000000000000444, 0.000000000000000000, 0.000000000000000000 ) ) ;
#317 = CARTESIAN_POINT ( 'NONE',  ( -1.614212418857619014, 0.000000000000000000, 0.000000000000000000 ) ) ;
#318 = ADVANCED_FACE ( 'NONE', ( #200 ), #100, .T. ) ;
#319 = FACE_OUTER_BOUND ( 'NONE', #250, .T. ) ;
#320 = PLANE ( 'NONE',  #79 ) ;
#321 = DIRECTION ( 'NONE',  ( 0.000000000000000000, 0.000000000000000000, 1.000000000000000000 ) ) ;
#322 = DIRECTION ( 'NONE',  ( 0.000000000000000000, 0.000000000000000000, 1.000000000000000000 ) ) ;
#323 = CARTESIAN_POINT ( 'NONE',  ( 0.000000000000000000, 0.000000000000000000, 0.000000000000000000 ) ) ;
#324 = CARTESIAN_POINT ( 'NONE',  ( 3.000000000000000000, 1.555301434917138433E-15, -12.69999999999999929 ) ) ;
#325 =( GEOMETRIC_REPRESENTATION_CONTEXT ( 3 ) GLOBAL_UNCERTAINTY_ASSIGNED_CONTEXT ( ( #120 ) ) GLOBAL_UNIT_ASSIGNED_CONTEXT ( ( #67, #278, #249 ) ) REPRESENTATION_CONTEXT ( 'NONE', 'WORKASPACE' ) );
#326 = DIRECTION ( 'NONE',  ( -1.000000000000000000, -0.000000000000000000, -0.000000000000000000 ) ) ;
#327 = EDGE_CURVE ( 'NONE', #235, #59, #276, .T. ) ;
#328 = ORIENTED_EDGE ( 'NONE', *, *, #149, .F. ) ;
#329 = LINE ( 'NONE', #47, #123 ) ;
#330 = ADVANCED_BREP_SHAPE_REPRESENTATION ( 'Q-OZHWP-R2-12.7-795-M', ( #10, #127 ), #325 ) ;
#331 = SHAPE_DEFINITION_REPRESENTATION ( #266, #330 ) ;
#332 = ORGANIZATION ( 'UNSPECIFIED', 'UNSPECIFIED', '' ) ;
#333 = CIRCLE ( 'NONE', #24, 12.69999999999999929 ) ;
#334 = APPLICATION_PROTOCOL_DEFINITION ( 'international standard', 'config_control_design', 1994, #154 ) ;
#335 = ORIENTED_EDGE ( 'NONE', *, *, #268, .F. ) ;
ENDSEC;
END-ISO-10303-21;
